ISO-10303-21;
HEADER;
/* Generated by software containing ST-Developer
 * from STEP Tools, Inc. (www.steptools.com) 
 */

FILE_DESCRIPTION(
/* description */ (''),
/* implementation_level */ '2;1');

FILE_NAME(
/* name */ 'tappo1.stp',
/* time_stamp */ '2025-06-09T15:54:38+02:00',
/* author */ ('R5800u'),
/* organization */ (''),
/* preprocessor_version */ 'ST-DEVELOPER v20',
/* originating_system */ 'Autodesk Inventor 2025',
/* authorisation */ '');

FILE_SCHEMA (('AUTOMOTIVE_DESIGN { 1 0 10303 214 3 1 1 }'));
ENDSEC;

DATA;
#10=MECHANICAL_DESIGN_GEOMETRIC_PRESENTATION_REPRESENTATION('',(#13),#329);
#11=SHAPE_REPRESENTATION_RELATIONSHIP('SRR','None',#336,#12);
#12=ADVANCED_BREP_SHAPE_REPRESENTATION('',(#14),#328);
#13=STYLED_ITEM('',(#345),#14);
#14=MANIFOLD_SOLID_BREP('Solido1',#180);
#15=FACE_BOUND('',#46,.T.);
#16=FACE_BOUND('',#47,.T.);
#17=FACE_BOUND('',#48,.T.);
#18=FACE_BOUND('',#49,.T.);
#19=FACE_BOUND('',#50,.T.);
#20=FACE_BOUND('',#51,.T.);
#21=FACE_BOUND('',#53,.T.);
#22=FACE_BOUND('',#54,.T.);
#23=FACE_BOUND('',#55,.T.);
#24=FACE_BOUND('',#56,.T.);
#25=FACE_BOUND('',#57,.T.);
#26=FACE_BOUND('',#58,.T.);
#27=PLANE('',#224);
#28=PLANE('',#225);
#29=FACE_OUTER_BOUND('',#38,.T.);
#30=FACE_OUTER_BOUND('',#39,.T.);
#31=FACE_OUTER_BOUND('',#40,.T.);
#32=FACE_OUTER_BOUND('',#41,.T.);
#33=FACE_OUTER_BOUND('',#42,.T.);
#34=FACE_OUTER_BOUND('',#43,.T.);
#35=FACE_OUTER_BOUND('',#44,.T.);
#36=FACE_OUTER_BOUND('',#45,.T.);
#37=FACE_OUTER_BOUND('',#52,.T.);
#38=EDGE_LOOP('',(#122,#123,#124,#125));
#39=EDGE_LOOP('',(#126,#127,#128,#129));
#40=EDGE_LOOP('',(#130,#131,#132,#133));
#41=EDGE_LOOP('',(#134,#135,#136,#137));
#42=EDGE_LOOP('',(#138,#139,#140,#141));
#43=EDGE_LOOP('',(#142,#143,#144,#145));
#44=EDGE_LOOP('',(#146,#147,#148,#149));
#45=EDGE_LOOP('',(#150));
#46=EDGE_LOOP('',(#151));
#47=EDGE_LOOP('',(#152));
#48=EDGE_LOOP('',(#153));
#49=EDGE_LOOP('',(#154));
#50=EDGE_LOOP('',(#155));
#51=EDGE_LOOP('',(#156));
#52=EDGE_LOOP('',(#157));
#53=EDGE_LOOP('',(#158));
#54=EDGE_LOOP('',(#159));
#55=EDGE_LOOP('',(#160));
#56=EDGE_LOOP('',(#161));
#57=EDGE_LOOP('',(#162));
#58=EDGE_LOOP('',(#163));
#59=LINE('',#286,#66);
#60=LINE('',#292,#67);
#61=LINE('',#298,#68);
#62=LINE('',#304,#69);
#63=LINE('',#310,#70);
#64=LINE('',#316,#71);
#65=LINE('',#322,#72);
#66=VECTOR('',#232,1.2);
#67=VECTOR('',#239,1.2);
#68=VECTOR('',#246,1.2);
#69=VECTOR('',#253,1.2);
#70=VECTOR('',#260,1.2);
#71=VECTOR('',#267,1.2);
#72=VECTOR('',#274,20.5);
#73=CIRCLE('',#204,1.2);
#74=CIRCLE('',#205,1.2);
#75=CIRCLE('',#207,1.2);
#76=CIRCLE('',#208,1.2);
#77=CIRCLE('',#210,1.2);
#78=CIRCLE('',#211,1.2);
#79=CIRCLE('',#213,1.2);
#80=CIRCLE('',#214,1.2);
#81=CIRCLE('',#216,1.2);
#82=CIRCLE('',#217,1.2);
#83=CIRCLE('',#219,1.2);
#84=CIRCLE('',#220,1.2);
#85=CIRCLE('',#222,20.5);
#86=CIRCLE('',#223,20.5);
#87=VERTEX_POINT('',#283);
#88=VERTEX_POINT('',#285);
#89=VERTEX_POINT('',#289);
#90=VERTEX_POINT('',#291);
#91=VERTEX_POINT('',#295);
#92=VERTEX_POINT('',#297);
#93=VERTEX_POINT('',#301);
#94=VERTEX_POINT('',#303);
#95=VERTEX_POINT('',#307);
#96=VERTEX_POINT('',#309);
#97=VERTEX_POINT('',#313);
#98=VERTEX_POINT('',#315);
#99=VERTEX_POINT('',#319);
#100=VERTEX_POINT('',#321);
#101=EDGE_CURVE('',#87,#87,#73,.T.);
#102=EDGE_CURVE('',#87,#88,#59,.T.);
#103=EDGE_CURVE('',#88,#88,#74,.T.);
#104=EDGE_CURVE('',#89,#89,#75,.T.);
#105=EDGE_CURVE('',#89,#90,#60,.T.);
#106=EDGE_CURVE('',#90,#90,#76,.T.);
#107=EDGE_CURVE('',#91,#91,#77,.T.);
#108=EDGE_CURVE('',#91,#92,#61,.T.);
#109=EDGE_CURVE('',#92,#92,#78,.T.);
#110=EDGE_CURVE('',#93,#93,#79,.T.);
#111=EDGE_CURVE('',#93,#94,#62,.T.);
#112=EDGE_CURVE('',#94,#94,#80,.T.);
#113=EDGE_CURVE('',#95,#95,#81,.T.);
#114=EDGE_CURVE('',#95,#96,#63,.T.);
#115=EDGE_CURVE('',#96,#96,#82,.T.);
#116=EDGE_CURVE('',#97,#97,#83,.T.);
#117=EDGE_CURVE('',#97,#98,#64,.T.);
#118=EDGE_CURVE('',#98,#98,#84,.T.);
#119=EDGE_CURVE('',#99,#99,#85,.T.);
#120=EDGE_CURVE('',#99,#100,#65,.T.);
#121=EDGE_CURVE('',#100,#100,#86,.T.);
#122=ORIENTED_EDGE('',*,*,#101,.F.);
#123=ORIENTED_EDGE('',*,*,#102,.T.);
#124=ORIENTED_EDGE('',*,*,#103,.T.);
#125=ORIENTED_EDGE('',*,*,#102,.F.);
#126=ORIENTED_EDGE('',*,*,#104,.F.);
#127=ORIENTED_EDGE('',*,*,#105,.T.);
#128=ORIENTED_EDGE('',*,*,#106,.T.);
#129=ORIENTED_EDGE('',*,*,#105,.F.);
#130=ORIENTED_EDGE('',*,*,#107,.F.);
#131=ORIENTED_EDGE('',*,*,#108,.T.);
#132=ORIENTED_EDGE('',*,*,#109,.T.);
#133=ORIENTED_EDGE('',*,*,#108,.F.);
#134=ORIENTED_EDGE('',*,*,#110,.F.);
#135=ORIENTED_EDGE('',*,*,#111,.T.);
#136=ORIENTED_EDGE('',*,*,#112,.T.);
#137=ORIENTED_EDGE('',*,*,#111,.F.);
#138=ORIENTED_EDGE('',*,*,#113,.F.);
#139=ORIENTED_EDGE('',*,*,#114,.T.);
#140=ORIENTED_EDGE('',*,*,#115,.T.);
#141=ORIENTED_EDGE('',*,*,#114,.F.);
#142=ORIENTED_EDGE('',*,*,#116,.F.);
#143=ORIENTED_EDGE('',*,*,#117,.T.);
#144=ORIENTED_EDGE('',*,*,#118,.T.);
#145=ORIENTED_EDGE('',*,*,#117,.F.);
#146=ORIENTED_EDGE('',*,*,#119,.F.);
#147=ORIENTED_EDGE('',*,*,#120,.T.);
#148=ORIENTED_EDGE('',*,*,#121,.T.);
#149=ORIENTED_EDGE('',*,*,#120,.F.);
#150=ORIENTED_EDGE('',*,*,#119,.T.);
#151=ORIENTED_EDGE('',*,*,#116,.T.);
#152=ORIENTED_EDGE('',*,*,#113,.T.);
#153=ORIENTED_EDGE('',*,*,#110,.T.);
#154=ORIENTED_EDGE('',*,*,#107,.T.);
#155=ORIENTED_EDGE('',*,*,#104,.T.);
#156=ORIENTED_EDGE('',*,*,#101,.T.);
#157=ORIENTED_EDGE('',*,*,#121,.F.);
#158=ORIENTED_EDGE('',*,*,#118,.F.);
#159=ORIENTED_EDGE('',*,*,#115,.F.);
#160=ORIENTED_EDGE('',*,*,#112,.F.);
#161=ORIENTED_EDGE('',*,*,#109,.F.);
#162=ORIENTED_EDGE('',*,*,#106,.F.);
#163=ORIENTED_EDGE('',*,*,#103,.F.);
#164=CYLINDRICAL_SURFACE('',#203,1.2);
#165=CYLINDRICAL_SURFACE('',#206,1.2);
#166=CYLINDRICAL_SURFACE('',#209,1.2);
#167=CYLINDRICAL_SURFACE('',#212,1.2);
#168=CYLINDRICAL_SURFACE('',#215,1.2);
#169=CYLINDRICAL_SURFACE('',#218,1.2);
#170=CYLINDRICAL_SURFACE('',#221,20.5);
#171=ADVANCED_FACE('',(#29),#164,.F.);
#172=ADVANCED_FACE('',(#30),#165,.F.);
#173=ADVANCED_FACE('',(#31),#166,.F.);
#174=ADVANCED_FACE('',(#32),#167,.F.);
#175=ADVANCED_FACE('',(#33),#168,.F.);
#176=ADVANCED_FACE('',(#34),#169,.F.);
#177=ADVANCED_FACE('',(#35),#170,.T.);
#178=ADVANCED_FACE('',(#36,#15,#16,#17,#18,#19,#20),#27,.T.);
#179=ADVANCED_FACE('',(#37,#21,#22,#23,#24,#25,#26),#28,.F.);
#180=CLOSED_SHELL('',(#171,#172,#173,#174,#175,#176,#177,#178,#179));
#181=DERIVED_UNIT_ELEMENT(#184,1.);
#182=DERIVED_UNIT_ELEMENT(#331,-3.);
#183=DIMENSIONAL_EXPONENTS(0.,1.,0.,0.,0.,0.,0.);
#184=(
CONVERSION_BASED_UNIT('gram',#186)
MASS_UNIT()
NAMED_UNIT(#183)
);
#185=(
MASS_UNIT()
NAMED_UNIT(*)
SI_UNIT(.KILO.,.GRAM.)
);
#186=MASS_MEASURE_WITH_UNIT(MASS_MEASURE(0.001),#185);
#187=DERIVED_UNIT((#181,#182));
#188=MEASURE_REPRESENTATION_ITEM('density measure',
POSITIVE_RATIO_MEASURE(1.),#187);
#189=PROPERTY_DEFINITION_REPRESENTATION(#194,#191);
#190=PROPERTY_DEFINITION_REPRESENTATION(#195,#192);
#191=REPRESENTATION('material name',(#193),#328);
#192=REPRESENTATION('density',(#188),#328);
#193=DESCRIPTIVE_REPRESENTATION_ITEM('Generico','Generico');
#194=PROPERTY_DEFINITION('material property','material name',#338);
#195=PROPERTY_DEFINITION('material property','density of part',#338);
#196=DATE_TIME_ROLE('creation_date');
#197=APPLIED_DATE_AND_TIME_ASSIGNMENT(#198,#196,(#338));
#198=DATE_AND_TIME(#199,#200);
#199=CALENDAR_DATE(2025,9,6);
#200=LOCAL_TIME(0,0,0.,#201);
#201=COORDINATED_UNIVERSAL_TIME_OFFSET(0,0,.BEHIND.);
#202=AXIS2_PLACEMENT_3D('',#281,#226,#227);
#203=AXIS2_PLACEMENT_3D('',#282,#228,#229);
#204=AXIS2_PLACEMENT_3D('',#284,#230,#231);
#205=AXIS2_PLACEMENT_3D('',#287,#233,#234);
#206=AXIS2_PLACEMENT_3D('',#288,#235,#236);
#207=AXIS2_PLACEMENT_3D('',#290,#237,#238);
#208=AXIS2_PLACEMENT_3D('',#293,#240,#241);
#209=AXIS2_PLACEMENT_3D('',#294,#242,#243);
#210=AXIS2_PLACEMENT_3D('',#296,#244,#245);
#211=AXIS2_PLACEMENT_3D('',#299,#247,#248);
#212=AXIS2_PLACEMENT_3D('',#300,#249,#250);
#213=AXIS2_PLACEMENT_3D('',#302,#251,#252);
#214=AXIS2_PLACEMENT_3D('',#305,#254,#255);
#215=AXIS2_PLACEMENT_3D('',#306,#256,#257);
#216=AXIS2_PLACEMENT_3D('',#308,#258,#259);
#217=AXIS2_PLACEMENT_3D('',#311,#261,#262);
#218=AXIS2_PLACEMENT_3D('',#312,#263,#264);
#219=AXIS2_PLACEMENT_3D('',#314,#265,#266);
#220=AXIS2_PLACEMENT_3D('',#317,#268,#269);
#221=AXIS2_PLACEMENT_3D('',#318,#270,#271);
#222=AXIS2_PLACEMENT_3D('',#320,#272,#273);
#223=AXIS2_PLACEMENT_3D('',#323,#275,#276);
#224=AXIS2_PLACEMENT_3D('',#324,#277,#278);
#225=AXIS2_PLACEMENT_3D('',#325,#279,#280);
#226=DIRECTION('axis',(0.,0.,1.));
#227=DIRECTION('refdir',(1.,0.,0.));
#228=DIRECTION('center_axis',(0.,0.,1.));
#229=DIRECTION('ref_axis',(-1.,0.,0.));
#230=DIRECTION('center_axis',(0.,0.,-1.));
#231=DIRECTION('ref_axis',(-1.,0.,0.));
#232=DIRECTION('',(0.,0.,-1.));
#233=DIRECTION('center_axis',(0.,0.,-1.));
#234=DIRECTION('ref_axis',(-1.,0.,0.));
#235=DIRECTION('center_axis',(0.,0.,1.));
#236=DIRECTION('ref_axis',(-1.,0.,0.));
#237=DIRECTION('center_axis',(0.,0.,-1.));
#238=DIRECTION('ref_axis',(-1.,0.,0.));
#239=DIRECTION('',(0.,0.,-1.));
#240=DIRECTION('center_axis',(0.,0.,-1.));
#241=DIRECTION('ref_axis',(-1.,0.,0.));
#242=DIRECTION('center_axis',(0.,0.,1.));
#243=DIRECTION('ref_axis',(-1.,0.,0.));
#244=DIRECTION('center_axis',(0.,0.,-1.));
#245=DIRECTION('ref_axis',(-1.,0.,0.));
#246=DIRECTION('',(0.,0.,-1.));
#247=DIRECTION('center_axis',(0.,0.,-1.));
#248=DIRECTION('ref_axis',(-1.,0.,0.));
#249=DIRECTION('center_axis',(0.,0.,1.));
#250=DIRECTION('ref_axis',(-1.,0.,0.));
#251=DIRECTION('center_axis',(0.,0.,-1.));
#252=DIRECTION('ref_axis',(-1.,0.,0.));
#253=DIRECTION('',(0.,0.,-1.));
#254=DIRECTION('center_axis',(0.,0.,-1.));
#255=DIRECTION('ref_axis',(-1.,0.,0.));
#256=DIRECTION('center_axis',(0.,0.,1.));
#257=DIRECTION('ref_axis',(-1.,0.,0.));
#258=DIRECTION('center_axis',(0.,0.,-1.));
#259=DIRECTION('ref_axis',(-1.,0.,0.));
#260=DIRECTION('',(0.,0.,-1.));
#261=DIRECTION('center_axis',(0.,0.,-1.));
#262=DIRECTION('ref_axis',(-1.,0.,0.));
#263=DIRECTION('center_axis',(0.,0.,1.));
#264=DIRECTION('ref_axis',(-1.,0.,0.));
#265=DIRECTION('center_axis',(0.,0.,-1.));
#266=DIRECTION('ref_axis',(-1.,0.,0.));
#267=DIRECTION('',(0.,0.,-1.));
#268=DIRECTION('center_axis',(0.,0.,-1.));
#269=DIRECTION('ref_axis',(-1.,0.,0.));
#270=DIRECTION('center_axis',(0.,0.,1.));
#271=DIRECTION('ref_axis',(1.,0.,0.));
#272=DIRECTION('center_axis',(0.,0.,1.));
#273=DIRECTION('ref_axis',(1.,0.,0.));
#274=DIRECTION('',(0.,0.,-1.));
#275=DIRECTION('center_axis',(0.,0.,1.));
#276=DIRECTION('ref_axis',(1.,0.,0.));
#277=DIRECTION('center_axis',(0.,0.,1.));
#278=DIRECTION('ref_axis',(1.,0.,0.));
#279=DIRECTION('center_axis',(0.,0.,1.));
#280=DIRECTION('ref_axis',(1.,0.,0.));
#281=CARTESIAN_POINT('',(0.,0.,0.));
#282=CARTESIAN_POINT('Origin',(1.77635683940025E-14,14.0000000000001,0.));
#283=CARTESIAN_POINT('',(1.20000000000002,14.0000000000001,3.));
#284=CARTESIAN_POINT('Origin',(1.77635683940025E-14,14.0000000000001,3.));
#285=CARTESIAN_POINT('',(1.20000000000002,14.0000000000001,0.));
#286=CARTESIAN_POINT('',(1.20000000000002,14.0000000000001,0.));
#287=CARTESIAN_POINT('Origin',(1.77635683940025E-14,14.0000000000001,0.));
#288=CARTESIAN_POINT('Origin',(-12.1243556529821,7.00000000000014,0.));
#289=CARTESIAN_POINT('',(-10.9243556529821,7.00000000000014,3.));
#290=CARTESIAN_POINT('Origin',(-12.1243556529821,7.00000000000014,3.));
#291=CARTESIAN_POINT('',(-10.9243556529821,7.00000000000014,0.));
#292=CARTESIAN_POINT('',(-10.9243556529821,7.00000000000014,0.));
#293=CARTESIAN_POINT('Origin',(-12.1243556529821,7.00000000000014,0.));
#294=CARTESIAN_POINT('Origin',(-12.1243556529821,-6.99999999999989,0.));
#295=CARTESIAN_POINT('',(-10.9243556529821,-6.99999999999989,3.));
#296=CARTESIAN_POINT('Origin',(-12.1243556529821,-6.99999999999989,3.));
#297=CARTESIAN_POINT('',(-10.9243556529821,-6.99999999999989,0.));
#298=CARTESIAN_POINT('',(-10.9243556529821,-6.99999999999989,0.));
#299=CARTESIAN_POINT('Origin',(-12.1243556529821,-6.99999999999989,0.));
#300=CARTESIAN_POINT('Origin',(2.66453525910038E-14,-13.9999999999999,0.));
#301=CARTESIAN_POINT('',(1.20000000000003,-13.9999999999999,3.));
#302=CARTESIAN_POINT('Origin',(2.66453525910038E-14,-13.9999999999999,3.));
#303=CARTESIAN_POINT('',(1.20000000000003,-13.9999999999999,0.));
#304=CARTESIAN_POINT('',(1.20000000000003,-13.9999999999999,0.));
#305=CARTESIAN_POINT('Origin',(2.66453525910038E-14,-13.9999999999999,0.));
#306=CARTESIAN_POINT('Origin',(12.1243556529822,-6.99999999999989,0.));
#307=CARTESIAN_POINT('',(13.3243556529822,-6.99999999999989,3.));
#308=CARTESIAN_POINT('Origin',(12.1243556529822,-6.99999999999989,3.));
#309=CARTESIAN_POINT('',(13.3243556529822,-6.99999999999989,0.));
#310=CARTESIAN_POINT('',(13.3243556529822,-6.99999999999989,0.));
#311=CARTESIAN_POINT('Origin',(12.1243556529822,-6.99999999999989,0.));
#312=CARTESIAN_POINT('Origin',(12.1243556529822,7.00000000000014,0.));
#313=CARTESIAN_POINT('',(13.3243556529822,7.00000000000014,3.));
#314=CARTESIAN_POINT('Origin',(12.1243556529822,7.00000000000014,3.));
#315=CARTESIAN_POINT('',(13.3243556529822,7.00000000000014,0.));
#316=CARTESIAN_POINT('',(13.3243556529822,7.00000000000014,0.));
#317=CARTESIAN_POINT('Origin',(12.1243556529822,7.00000000000014,0.));
#318=CARTESIAN_POINT('Origin',(0.,0.,0.));
#319=CARTESIAN_POINT('',(-20.5,-2.51052593825207E-15,3.));
#320=CARTESIAN_POINT('Origin',(0.,0.,3.));
#321=CARTESIAN_POINT('',(-20.5,-2.51052593825207E-15,0.));
#322=CARTESIAN_POINT('',(-20.5,-2.51052593825207E-15,0.));
#323=CARTESIAN_POINT('Origin',(0.,0.,0.));
#324=CARTESIAN_POINT('Origin',(0.,0.,3.));
#325=CARTESIAN_POINT('Origin',(0.,0.,0.));
#326=UNCERTAINTY_MEASURE_WITH_UNIT(LENGTH_MEASURE(0.01),#330,
'DISTANCE_ACCURACY_VALUE',
'Maximum model space distance between geometric entities at asserted c
onnectivities');
#327=UNCERTAINTY_MEASURE_WITH_UNIT(LENGTH_MEASURE(0.01),#330,
'DISTANCE_ACCURACY_VALUE',
'Maximum model space distance between geometric entities at asserted c
onnectivities');
#328=(
GEOMETRIC_REPRESENTATION_CONTEXT(3)
GLOBAL_UNCERTAINTY_ASSIGNED_CONTEXT((#326))
GLOBAL_UNIT_ASSIGNED_CONTEXT((#330,#332,#333))
REPRESENTATION_CONTEXT('','3D')
);
#329=(
GEOMETRIC_REPRESENTATION_CONTEXT(3)
GLOBAL_UNCERTAINTY_ASSIGNED_CONTEXT((#327))
GLOBAL_UNIT_ASSIGNED_CONTEXT((#330,#332,#333))
REPRESENTATION_CONTEXT('','3D')
);
#330=(
LENGTH_UNIT()
NAMED_UNIT(*)
SI_UNIT(.MILLI.,.METRE.)
);
#331=(
LENGTH_UNIT()
NAMED_UNIT(*)
SI_UNIT(.CENTI.,.METRE.)
);
#332=(
NAMED_UNIT(*)
PLANE_ANGLE_UNIT()
SI_UNIT($,.RADIAN.)
);
#333=(
NAMED_UNIT(*)
SI_UNIT($,.STERADIAN.)
SOLID_ANGLE_UNIT()
);
#334=SHAPE_DEFINITION_REPRESENTATION(#335,#336);
#335=PRODUCT_DEFINITION_SHAPE('',$,#338);
#336=SHAPE_REPRESENTATION('',(#202),#328);
#337=PRODUCT_DEFINITION_CONTEXT('part definition',#342,'design');
#338=PRODUCT_DEFINITION('tappo1','tappo1',#339,#337);
#339=PRODUCT_DEFINITION_FORMATION('',$,#344);
#340=PRODUCT_RELATED_PRODUCT_CATEGORY('tappo1','tappo1',(#344));
#341=APPLICATION_PROTOCOL_DEFINITION('international standard',
'automotive_design',2009,#342);
#342=APPLICATION_CONTEXT(
'Core Data for Automotive Mechanical Design Process');
#343=PRODUCT_CONTEXT('part definition',#342,'mechanical');
#344=PRODUCT('tappo1','tappo1',$,(#343));
#345=PRESENTATION_STYLE_ASSIGNMENT((#346));
#346=SURFACE_STYLE_USAGE(.BOTH.,#349);
#347=SURFACE_STYLE_RENDERING_WITH_PROPERTIES($,#353,(#348));
#348=SURFACE_STYLE_TRANSPARENT(0.);
#349=SURFACE_SIDE_STYLE('',(#350,#347));
#350=SURFACE_STYLE_FILL_AREA(#351);
#351=FILL_AREA_STYLE('',(#352));
#352=FILL_AREA_STYLE_COLOUR('',#353);
#353=COLOUR_RGB('',0.749019607843137,0.749019607843137,0.749019607843137);
ENDSEC;
END-ISO-10303-21;
